999
dxflib 2.0.2.1
  0
SECTION
  2
HEADER
  9
$ACADVER
  1
AC1015
  9
$HANDSEED
  5
FFFF
  9
$DIMASZ
 40
2.5
  9
$GRIDUNIT
 10
0.001
 20
0.001
  9
$DIMADEC
 70
2
  9
$DIMGAP
 40
0.625
  9
$DIMALT
 70
4
  9
$AUPREC
 70
2
  9
$LUNITS
 70
2
  9
$DIMRND
 40
0.010000
  9
$DIMEXO
 40
0.625
  9
$INSUNITS
 70
4
  9
$DIMLUNIT
 70
2
  9
$DIMTXT
 40
2.5
  9
$GRIDMODE
 70
1
  9
$LUPREC
 70
1
  9
$PLIMMAX
 10
210.0
 20
297.0
  9
$PLIMMIN
 10
0.0
 20
0.0
  9
$DIMEXE
 40
1.25
  9
$DIMAUNIT
 70
0
  9
$AUNITS
 70
0
  0
ENDSEC
  0
SECTION
  2
TABLES
  0
TABLE
  2
VPORT
  5
8
100
AcDbSymbolTable
 70
1
  0
VPORT
  5
30
100
AcDbSymbolTableRecord
100
AcDbViewportTableRecord
  2
*Active
 70
0
 10
0.0
 20
0.0
 11
1.0
 21
1.0
 12
286.3055555555554861
 22
148.5
 13
0.0
 23
0.0
 14
10.0
 24
10.0
 15
10.0
 25
10.0
 16
0.0
 26
0.0
 36
1.0
 17
0.0
 27
0.0
 37
0.0
 40
297.0
 41
1.92798353909465
 42
50.0
 43
0.0
 44
0.0
 50
0.0
 51
0.0
 71
0
 72
100
 73
1
 74
3
 75
1
 76
1
 77
0
 78
0
281
0
 65
1
110
0.0
120
0.0
130
0.0
111
1.0
121
0.0
131
0.0
112
0.0
122
1.0
132
0.0
 79
0
146
0.0
  0
ENDTAB
  0
TABLE
  2
LTYPE
  5
5
100
AcDbSymbolTable
 70
3
  0
LTYPE
  5
14
100
AcDbSymbolTableRecord
100
AcDbLinetypeTableRecord
  2
ByBlock
 70
0
  3

 72
65
 73
0
 40
0.0
  0
LTYPE
  5
15
100
AcDbSymbolTableRecord
100
AcDbLinetypeTableRecord
  2
ByLayer
 70
0
  3

 72
65
 73
0
 40
0.0
  0
LTYPE
  5
16
100
AcDbSymbolTableRecord
100
AcDbLinetypeTableRecord
  2
CONTINUOUS
 70
0
  3
Solid line
 72
65
 73
0
 40
0.0
  0
LTYPE
  5
31
100
AcDbSymbolTableRecord
100
AcDbLinetypeTableRecord
  2
DOT
 70
0
  3
Dot . . . . . . . . . . . . . . . . . . . . . .
 72
65
 73
2
 40
6.3499999999999996
 49
0.0
 74
0
 49
-6.3499999999999996
 74
0
  0
LTYPE
  5
32
100
AcDbSymbolTableRecord
100
AcDbLinetypeTableRecord
  2
DOT2
 70
0
  3
Dot (.5x) .....................................
 72
65
 73
2
 40
3.1749999999999998
 49
0.0
 74
0
 49
-3.1749999999999998
 74
0
  0
LTYPE
  5
33
100
AcDbSymbolTableRecord
100
AcDbLinetypeTableRecord
  2
DOTX2
 70
0
  3
Dot (2x) .  .  .  .  .  .  .  .  .  .  .  .  .
 72
65
 73
2
 40
12.6999999999999993
 49
0.0
 74
0
 49
-12.6999999999999993
 74
0
  0
LTYPE
  5
34
100
AcDbSymbolTableRecord
100
AcDbLinetypeTableRecord
  2
DASHED
 70
0
  3
Dashed __ __ __ __ __ __ __ __ __ __ __ __ __ _
 72
65
 73
2
 40
19.0500000000000007
 49
12.6999999999999993
 74
0
 49
-6.3499999999999996
 74
0
  0
LTYPE
  5
35
100
AcDbSymbolTableRecord
100
AcDbLinetypeTableRecord
  2
DASHED2
 70
0
  3
Dashed (.5x) _ _ _ _ _ _ _ _ _ _ _ _ _ _ _ _ _
 72
65
 73
2
 40
9.5250000000000004
 49
6.3499999999999996
 74
0
 49
-3.1749999999999998
 74
0
  0
LTYPE
  5
36
100
AcDbSymbolTableRecord
100
AcDbLinetypeTableRecord
  2
DASHEDX2
 70
0
  3
Dashed (2x) ____  ____  ____  ____  ____  ___
 72
65
 73
2
 40
38.1000000000000014
 49
25.3999999999999986
 74
0
 49
-12.6999999999999993
 74
0
  0
LTYPE
  5
37
100
AcDbSymbolTableRecord
100
AcDbLinetypeTableRecord
  2
DASHDOT
 70
0
  3
Dash dot __ . __ . __ . __ . __ . __ . __ . __
 72
65
 73
4
 40
25.3999999999999986
 49
12.6999999999999993
 74
0
 49
-6.3499999999999996
 74
0
 49
0.0
 74
0
 49
-6.3499999999999996
 74
0
  0
LTYPE
  5
38
100
AcDbSymbolTableRecord
100
AcDbLinetypeTableRecord
  2
DASHDOT2
 70
0
  3
Dash dot (.5x) _._._._._._._._._._._._._._._.
 72
65
 73
4
 40
12.6999999999999993
 49
6.3499999999999996
 74
0
 49
-3.1749999999999998
 74
0
 49
0.0
 74
0
 49
-3.1749999999999998
 74
0
  0
LTYPE
  5
39
100
AcDbSymbolTableRecord
100
AcDbLinetypeTableRecord
  2
DASHDOTX2
 70
0
  3
Dash dot (2x) ____  .  ____  .  ____  .  ___
 72
65
 73
4
 40
50.7999999999999972
 49
25.3999999999999986
 74
0
 49
-12.6999999999999993
 74
0
 49
0.0
 74
0
 49
-12.6999999999999993
 74
0
  0
LTYPE
  5
3A
100
AcDbSymbolTableRecord
100
AcDbLinetypeTableRecord
  2
DIVIDE
 70
0
  3
Divide ____ . . ____ . . ____ . . ____ . . ____
 72
65
 73
6
 40
31.75
 49
12.6999999999999993
 74
0
 49
-6.3499999999999996
 74
0
 49
0.0
 74
0
 49
-6.3499999999999996
 74
0
 49
0.0
 74
0
 49
-6.3499999999999996
 74
0
  0
LTYPE
  5
3B
100
AcDbSymbolTableRecord
100
AcDbLinetypeTableRecord
  2
DIVIDE2
 70
0
  3
Divide (.5x) __..__..__..__..__..__..__..__.._
 72
65
 73
6
 40
15.875
 49
6.3499999999999996
 74
0
 49
-3.1749999999999998
 74
0
 49
0.0
 74
0
 49
-3.1749999999999998
 74
0
 49
0.0
 74
0
 49
-3.1749999999999998
 74
0
  0
LTYPE
  5
3C
100
AcDbSymbolTableRecord
100
AcDbLinetypeTableRecord
  2
DIVIDEX2
 70
0
  3
Divide (2x) ________  .  .  ________  .  .  _
 72
65
 73
6
 40
63.5
 49
25.3999999999999986
 74
0
 49
-12.6999999999999993
 74
0
 49
0.0
 74
0
 49
-12.6999999999999993
 74
0
 49
0.0
 74
0
 49
-12.6999999999999993
 74
0
  0
LTYPE
  5
3D
100
AcDbSymbolTableRecord
100
AcDbLinetypeTableRecord
  2
CENTER
 70
0
  3
Center ____ _ ____ _ ____ _ ____ _ ____ _ ____
 72
65
 73
4
 40
50.7999999999999972
 49
31.75
 74
0
 49
-6.3499999999999996
 74
0
 49
6.3499999999999996
 74
0
 49
-6.3499999999999996
 74
0
  0
LTYPE
  5
3E
100
AcDbSymbolTableRecord
100
AcDbLinetypeTableRecord
  2
CENTER2
 70
0
  3
Center (.5x) ___ _ ___ _ ___ _ ___ _ ___ _ ___
 72
65
 73
4
 40
28.5749999999999993
 49
19.0500000000000007
 74
0
 49
-3.1749999999999998
 74
0
 49
3.1749999999999998
 74
0
 49
-3.1749999999999998
 74
0
  0
LTYPE
  5
3F
100
AcDbSymbolTableRecord
100
AcDbLinetypeTableRecord
  2
CENTERX2
 70
0
  3
Center (2x) ________  __  ________  __  _____
 72
65
 73
4
 40
101.5999999999999943
 49
63.5
 74
0
 49
-12.6999999999999993
 74
0
 49
12.6999999999999993
 74
0
 49
-12.6999999999999993
 74
0
  0
LTYPE
  5
40
100
AcDbSymbolTableRecord
100
AcDbLinetypeTableRecord
  2
BORDER
 70
0
  3
Border __ __ . __ __ . __ __ . __ __ . __ __ .
 72
65
 73
6
 40
44.4500000000000028
 49
12.6999999999999993
 74
0
 49
-6.3499999999999996
 74
0
 49
12.6999999999999993
 74
0
 49
-6.3499999999999996
 74
0
 49
0.0
 74
0
 49
-6.3499999999999996
 74
0
  0
LTYPE
  5
41
100
AcDbSymbolTableRecord
100
AcDbLinetypeTableRecord
  2
BORDER2
 70
0
  3
Border (.5x) __.__.__.__.__.__.__.__.__.__.__.
 72
65
 73
6
 40
22.2250000000000014
 49
6.3499999999999996
 74
0
 49
-3.1749999999999998
 74
0
 49
6.3499999999999996
 74
0
 49
-3.1749999999999998
 74
0
 49
0.0
 74
0
 49
-3.1749999999999998
 74
0
  0
LTYPE
  5
42
100
AcDbSymbolTableRecord
100
AcDbLinetypeTableRecord
  2
BORDERX2
 70
0
  3
Border (2x) ____  ____  .  ____  ____  .  ___
 72
65
 73
6
 40
88.9000000000000057
 49
25.3999999999999986
 74
0
 49
-12.6999999999999993
 74
0
 49
25.3999999999999986
 74
0
 49
-12.6999999999999993
 74
0
 49
0.0
 74
0
 49
-12.6999999999999993
 74
0
  0
ENDTAB
  0
TABLE
  2
LAYER
  5
2
100
AcDbSymbolTable
 70
1
  0
LAYER
  5
10
100
AcDbSymbolTableRecord
100
AcDbLayerTableRecord
  2
0
 70
0
 62
7
  6
CONTINUOUS
390
F
  0
ENDTAB
  0
TABLE
  2
STYLE
  5
3
100
AcDbSymbolTable
 70
1
  0
STYLE
  5
11
100
AcDbSymbolTableRecord
100
AcDbTextStyleTableRecord
  2
Standard
 70
0
 40
0.0
 41
1.0
 50
0.0
 71
0
 42
2.5
  3
txt
  4

  0
ENDTAB
  0
TABLE
  2
VIEW
  5
6
100
AcDbSymbolTable
 70
0
  0
ENDTAB
  0
TABLE
  2
UCS
  5
7
100
AcDbSymbolTable
 70
0
  0
ENDTAB
  0
TABLE
  2
APPID
  5
9
100
AcDbSymbolTable
 70
1
  0
APPID
  5
12
100
AcDbSymbolTableRecord
100
AcDbRegAppTableRecord
  2
ACAD
 70
0
  0
ENDTAB
  0
TABLE
  2
DIMSTYLE
  5
A
100
AcDbSymbolTable
 70
1
100
AcDbDimStyleTable
 71
0
  0
DIMSTYLE
105
27
100
AcDbSymbolTableRecord
100
AcDbDimStyleTableRecord
  2
Standard
 41
2.5
 42
0.625
 43
3.75
 44
1.25
 70
0
 73
0
 74
0
 77
1
 78
8
140
2.5
141
2.5
143
0.03937007874016
147
0.625
171
3
172
1
271
2
272
2
274
3
278
44
283
0
284
8
340
11
  0
ENDTAB
  0
TABLE
  2
BLOCK_RECORD
  5
1
100
AcDbSymbolTable
 70
1
  0
BLOCK_RECORD
  5
1F
100
AcDbSymbolTableRecord
100
AcDbBlockTableRecord
  2
*Model_Space
340
22
  0
BLOCK_RECORD
  5
1B
100
AcDbSymbolTableRecord
100
AcDbBlockTableRecord
  2
*Paper_Space
340
1E
  0
BLOCK_RECORD
  5
23
100
AcDbSymbolTableRecord
100
AcDbBlockTableRecord
  2
*Paper_Space0
340
26
  0
ENDTAB
  0
ENDSEC
  0
SECTION
  2
BLOCKS
  0
BLOCK
  5
20
100
AcDbEntity
  8
0
100
AcDbBlockBegin
  2
*Model_Space
 70
0
 10
0.0
 20
0.0
 30
0.0
  3
*Model_Space
  1

  0
ENDBLK
  5
21
100
AcDbEntity
  8
0
100
AcDbBlockEnd
  0
BLOCK
  5
1C
100
AcDbEntity
 67
1
  8
0
100
AcDbBlockBegin
  2
*Paper_Space
 70
0
 10
0.0
 20
0.0
 30
0.0
  3
*Paper_Space
  1

  0
ENDBLK
  5
1D
100
AcDbEntity
 67
1
  8
0
100
AcDbBlockEnd
  0
BLOCK
  5
24
100
AcDbEntity
  8
0
100
AcDbBlockBegin
  2
*Paper_Space0
 70
0
 10
0.0
 20
0.0
 30
0.0
  3
*Paper_Space0
  1

  0
ENDBLK
  5
25
100
AcDbEntity
  8
0
100
AcDbBlockEnd
  0
ENDSEC
  0
SECTION
  2
ENTITIES
  0
LINE
  5
43
100
AcDbEntity
100
AcDbLine
  8
0
 62
0
370
0
  6
CONTINUOUS
 10
27.2002960000000016
 20
278.1966990000000237
 30
0.0
 11
13.7652669999999997
 21
264.761669999999981
 31
0.0
  0
LINE
  5
44
100
AcDbEntity
100
AcDbLine
  8
0
 62
0
370
0
  6
CONTINUOUS
 10
42.2616700000000023
 20
236.2652669999999944
 30
0.0
 11
13.7652669999999997
 21
264.761669999999981
 31
0.0
  0
CIRCLE
  5
45
100
AcDbEntity
100
AcDbCircle
  8
0
 62
0
370
0
  6
CONTINUOUS
 10
14.5430840000000003
 20
271.3377629999999954
 30
0.0
 40
1.5
  0
CIRCLE
  5
46
100
AcDbEntity
100
AcDbCircle
  8
0
 62
0
370
0
  6
CONTINUOUS
 10
21.3313099999999984
 20
278.1259880000000067
 30
0.0
 40
1.5
  0
CIRCLE
  5
47
100
AcDbEntity
100
AcDbCircle
  8
0
 62
0
370
0
  6
CONTINUOUS
 10
55.6259879999999995
 20
243.831310000000002
 30
0.0
 40
1.5
  0
CIRCLE
  5
48
100
AcDbEntity
100
AcDbCircle
  8
0
 62
0
370
0
  6
CONTINUOUS
 10
48.8377630000000025
 20
237.0430839999999932
 30
0.0
 40
1.5
  0
LINE
  5
49
100
AcDbEntity
100
AcDbLine
  8
0
 62
0
370
0
  6
CONTINUOUS
 10
9.0
 20
283.5
 30
0.0
 11
9.0
 21
231.5
 31
0.0
  0
LINE
  5
4A
100
AcDbEntity
100
AcDbLine
  8
0
 62
0
370
0
  6
CONTINUOUS
 10
55.6966990000000024
 20
249.7002960000000087
 30
0.0
 11
42.2616700000000023
 21
236.2652669999999944
 31
0.0
  0
LINE
  5
4B
100
AcDbEntity
100
AcDbLine
  8
0
 62
0
370
0
  6
CONTINUOUS
 10
9.0
 20
283.5
 30
0.0
 11
21.8969950000000004
 21
283.5
 31
0.0
  0
LINE
  5
4C
100
AcDbEntity
100
AcDbLine
  8
0
 62
0
370
0
  6
CONTINUOUS
 10
61.0
 20
244.396995000000004
 30
0.0
 11
61.0
 21
231.5
 31
0.0
  0
LINE
  5
4D
100
AcDbEntity
100
AcDbLine
  8
0
 62
0
370
0
  6
CONTINUOUS
 10
55.6966990000000024
 20
249.7002960000000087
 30
0.0
 11
61.0
 21
244.396995000000004
 31
0.0
  0
LINE
  5
4E
100
AcDbEntity
100
AcDbLine
  8
0
 62
0
370
0
  6
CONTINUOUS
 10
27.2002960000000016
 20
278.1966990000000237
 30
0.0
 11
21.8969950000000004
 21
283.5
 31
0.0
  0
LINE
  5
4F
100
AcDbEntity
100
AcDbLine
  8
0
 62
0
370
0
  6
CONTINUOUS
 10
62.994056999999998
 20
283.5
 30
0.0
 11
62.994056999999998
 21
231.5
 31
0.0
  0
LINE
  5
50
100
AcDbEntity
100
AcDbLine
  8
0
 62
0
370
0
  6
CONTINUOUS
 10
114.994056999999998
 20
283.5
 30
0.0
 11
114.994056999999998
 21
231.5
 31
0.0
  0
LINE
  5
51
100
AcDbEntity
100
AcDbLine
  8
0
 62
0
370
0
  6
CONTINUOUS
 10
62.994056999999998
 20
231.5
 30
0.0
 11
114.994056999999998
 21
231.5
 31
0.0
  0
LINE
  5
52
100
AcDbEntity
100
AcDbLine
  8
0
 62
0
370
0
  6
CONTINUOUS
 10
117.4868120000000005
 20
283.5
 30
0.0
 11
117.4868120000000005
 21
231.5
 31
0.0
  0
LINE
  5
53
100
AcDbEntity
100
AcDbLine
  8
0
 62
0
370
0
  6
CONTINUOUS
 10
117.4868120000000005
 20
283.5
 30
0.0
 11
169.4868119999999863
 21
283.5
 31
0.0
  0
LINE
  5
54
100
AcDbEntity
100
AcDbLine
  8
0
 62
0
370
0
  6
CONTINUOUS
 10
169.4868119999999863
 20
283.5
 30
0.0
 11
169.4868119999999863
 21
231.5
 31
0.0
  0
LINE
  5
55
100
AcDbEntity
100
AcDbLine
  8
0
 62
0
370
0
  6
CONTINUOUS
 10
61.0
 20
186.5698700000000088
 30
0.0
 11
48.1030050000000031
 21
186.5698700000000088
 31
0.0
  0
LINE
  5
56
100
AcDbEntity
100
AcDbLine
  8
0
 62
0
370
0
  6
CONTINUOUS
 10
61.0
 20
186.5698700000000088
 30
0.0
 11
36.6219460000000012
 21
225.2599109999999882
 31
0.0
  0
LINE
  5
57
100
AcDbEntity
100
AcDbLine
  8
0
 62
0
370
0
  6
CONTINUOUS
 10
9.0
 20
186.5698700000000088
 30
0.0
 11
17.5281289999999998
 21
222.1123249999999985
 31
0.0
  0
ARC
  5
58
100
AcDbEntity
  8
0
 62
0
370
0
  6
CONTINUOUS
100
AcDbCircle
 10
27.7383300000000013
 20
219.6624679999999898
 30
0.0
 40
10.5
100
AcDbArc
 50
32.2144559999999984
 51
166.5074070000000006
  0
CIRCLE
  5
59
100
AcDbEntity
100
AcDbCircle
  8
0
 62
0
370
0
  6
CONTINUOUS
 10
27.7383300000000013
 20
219.6624679999999898
 30
0.0
 40
1.5
  0
LINE
  5
5A
100
AcDbEntity
100
AcDbLine
  8
0
 62
0
370
0
  6
CONTINUOUS
 10
114.994056999999998
 20
186.5698700000000088
 30
0.0
 11
90.6160030000000063
 21
225.2599109999999882
 31
0.0
  0
LINE
  5
5B
100
AcDbEntity
100
AcDbLine
  8
0
 62
0
370
0
  6
CONTINUOUS
 10
62.994056999999998
 20
186.5698700000000088
 30
0.0
 11
71.5221860000000049
 21
222.1123249999999985
 31
0.0
  0
ARC
  5
5C
100
AcDbEntity
  8
0
 62
0
370
0
  6
CONTINUOUS
100
AcDbCircle
 10
81.7323870000000028
 20
219.6624679999999898
 30
0.0
 40
10.5
100
AcDbArc
 50
32.2144559999999984
 51
166.5074070000000006
  0
CIRCLE
  5
5D
100
AcDbEntity
100
AcDbCircle
  8
0
 62
0
370
0
  6
CONTINUOUS
 10
81.7323870000000028
 20
219.6624679999999898
 30
0.0
 40
1.5
  0
LINE
  5
5E
100
AcDbEntity
100
AcDbLine
  8
0
 62
0
370
0
  6
CONTINUOUS
 10
61.0
 20
186.5698700000000088
 30
0.0
 11
9.0
 21
186.5698700000000088
 31
0.0
  0
LINE
  5
5F
100
AcDbEntity
100
AcDbLine
  8
0
 62
0
370
0
  6
CONTINUOUS
 10
169.4868119999999863
 20
186.5698700000000088
 30
0.0
 11
156.5898170000000107
 21
186.5698700000000088
 31
0.0
  0
LINE
  5
60
100
AcDbEntity
100
AcDbLine
  8
0
 62
0
370
0
  6
CONTINUOUS
 10
169.4868119999999863
 20
186.5698700000000088
 30
0.0
 11
117.4868120000000005
 21
186.5698700000000088
 31
0.0
  0
LINE
  5
61
100
AcDbEntity
100
AcDbLine
  8
0
 62
0
370
0
  6
CONTINUOUS
 10
169.4868119999999863
 20
186.5698700000000088
 30
0.0
 11
145.1087579999999946
 21
225.2599109999999882
 31
0.0
  0
LINE
  5
62
100
AcDbEntity
100
AcDbLine
  8
0
 62
0
370
0
  6
CONTINUOUS
 10
117.4868120000000005
 20
186.5698700000000088
 30
0.0
 11
126.0149409999999932
 21
222.1123249999999985
 31
0.0
  0
ARC
  5
63
100
AcDbEntity
  8
0
 62
0
370
0
  6
CONTINUOUS
100
AcDbCircle
 10
136.2251420000000053
 20
219.6624679999999898
 30
0.0
 40
10.5
100
AcDbArc
 50
32.2144559999999984
 51
166.5074070000000006
  0
CIRCLE
  5
64
100
AcDbEntity
100
AcDbCircle
  8
0
 62
0
370
0
  6
CONTINUOUS
 10
136.2251420000000053
 20
212.1624679999999898
 30
0.0
 40
1.5
  0
CIRCLE
  5
65
100
AcDbEntity
100
AcDbCircle
  8
0
 62
0
370
0
  6
CONTINUOUS
 10
136.2251420000000053
 20
227.1624679999999898
 30
0.0
 40
1.5
  0
LINE
  5
66
100
AcDbEntity
100
AcDbLine
  8
0
 62
0
370
0
  6
CONTINUOUS
 10
62.994056999999998
 20
186.5698700000000088
 30
0.0
 11
114.994056999999998
 21
186.5698700000000088
 31
0.0
  0
LINE
  5
67
100
AcDbEntity
100
AcDbLine
  8
0
 62
0
370
0
  6
CONTINUOUS
 10
62.994056999999998
 20
283.5
 30
0.0
 11
114.994056999999998
 21
283.5
 31
0.0
  0
LINE
  5
68
100
AcDbEntity
100
AcDbLine
  8
0
 62
0
370
0
  6
CONTINUOUS
 10
9.0
 20
231.5
 30
0.0
 11
61.0
 21
231.5
 31
0.0
  0
LINE
  5
69
100
AcDbEntity
100
AcDbLine
  8
0
 62
0
370
0
  6
CONTINUOUS
 10
117.4868120000000005
 20
231.5
 30
0.0
 11
169.4868119999999863
 21
231.5
 31
0.0
  0
LINE
  5
6A
100
AcDbEntity
100
AcDbLine
  8
0
 62
0
370
0
  6
CONTINUOUS
 10
83.1323869999999943
 20
219.6624679999999898
 30
0.0
 11
80.3323869999999971
 21
219.6624679999999898
 31
0.0
  0
LINE
  5
6B
100
AcDbEntity
100
AcDbLine
  8
0
 62
0
370
0
  6
CONTINUOUS
 10
81.7323870000000028
 20
218.2624680000000126
 30
0.0
 11
81.7323870000000028
 21
221.0624679999999955
 31
0.0
  0
LINE
  5
6C
100
AcDbEntity
100
AcDbLine
  8
0
 62
0
370
0
  6
CONTINUOUS
 10
137.625142000000011
 20
219.6624679999999898
 30
0.0
 11
134.8251419999999996
 21
219.6624679999999898
 31
0.0
  0
LINE
  5
6D
100
AcDbEntity
100
AcDbLine
  8
0
 62
0
370
0
  6
CONTINUOUS
 10
136.2251420000000053
 20
218.2624680000000126
 30
0.0
 11
136.2251420000000053
 21
221.0624679999999955
 31
0.0
  0
LINE
  5
6E
100
AcDbEntity
100
AcDbLine
  8
0
 62
0
370
0
  6
CONTINUOUS
 10
137.7251420000000053
 20
212.1624679999999898
 30
0.0
 11
134.7251420000000053
 21
212.1624679999999898
 31
0.0
  0
LINE
  5
6F
100
AcDbEntity
100
AcDbLine
  8
0
 62
0
370
0
  6
CONTINUOUS
 10
136.2251420000000053
 20
210.6624679999999898
 30
0.0
 11
136.2251420000000053
 21
213.6624679999999898
 31
0.0
  0
LINE
  5
70
100
AcDbEntity
100
AcDbLine
  8
0
 62
0
370
0
  6
CONTINUOUS
 10
136.2251420000000053
 20
225.6624679999999898
 30
0.0
 11
136.2251420000000053
 21
228.6624679999999898
 31
0.0
  0
LINE
  5
71
100
AcDbEntity
100
AcDbLine
  8
0
 62
0
370
0
  6
CONTINUOUS
 10
137.7251420000000053
 20
227.1624679999999898
 30
0.0
 11
134.7251420000000053
 21
227.1624679999999898
 31
0.0
  0
LINE
  5
72
100
AcDbEntity
100
AcDbLine
  8
0
 62
0
370
0
  6
CONTINUOUS
 10
29.1383299999999998
 20
219.6624679999999898
 30
0.0
 11
26.3383299999999991
 21
219.6624679999999898
 31
0.0
  0
LINE
  5
73
100
AcDbEntity
100
AcDbLine
  8
0
 62
0
370
0
  6
CONTINUOUS
 10
27.7383300000000013
 20
218.2624680000000126
 30
0.0
 11
27.7383300000000013
 21
221.0624679999999955
 31
0.0
  0
LINE
  5
74
100
AcDbEntity
100
AcDbLine
  8
0
 62
0
370
0
  6
CONTINUOUS
 10
14.5430840000000003
 20
272.8377629999999954
 30
0.0
 11
14.5430840000000003
 21
269.8377629999999954
 31
0.0
  0
LINE
  5
75
100
AcDbEntity
100
AcDbLine
  8
0
 62
0
370
0
  6
CONTINUOUS
 10
13.0430840000000003
 20
271.3377629999999954
 30
0.0
 11
16.0430840000000003
 21
271.3377629999999954
 31
0.0
  0
LINE
  5
76
100
AcDbEntity
100
AcDbLine
  8
0
 62
0
370
0
  6
CONTINUOUS
 10
48.8377630000000025
 20
238.5430839999999932
 30
0.0
 11
48.8377630000000025
 21
235.5430839999999932
 31
0.0
  0
LINE
  5
77
100
AcDbEntity
100
AcDbLine
  8
0
 62
0
370
0
  6
CONTINUOUS
 10
47.3377630000000025
 20
237.0430839999999932
 30
0.0
 11
50.3377630000000025
 21
237.0430839999999932
 31
0.0
  0
POINT
  5
78
100
AcDbEntity
100
AcDbPoint
  8
0
 62
0
370
0
  6
CONTINUOUS
 10
-1.0
 20
-1.5
 30
0.0
  0
CIRCLE
  5
79
100
AcDbEntity
100
AcDbCircle
  8
0
 62
0
370
0
  6
CONTINUOUS
 10
136.2251420000000053
 20
219.6624679999999898
 30
0.0
 40
4.0
  0
CIRCLE
  5
7A
100
AcDbEntity
100
AcDbCircle
  8
0
 62
0
370
0
  6
CONTINUOUS
 10
73.994056999999998
 20
272.5
 30
0.0
 40
1.5
  0
CIRCLE
  5
7B
100
AcDbEntity
100
AcDbCircle
  8
0
 62
0
370
0
  6
CONTINUOUS
 10
103.994056999999998
 20
272.5
 30
0.0
 40
1.5
  0
CIRCLE
  5
7C
100
AcDbEntity
100
AcDbCircle
  8
0
 62
0
370
0
  6
CONTINUOUS
 10
103.994056999999998
 20
242.5
 30
0.0
 40
1.5
  0
CIRCLE
  5
7D
100
AcDbEntity
100
AcDbCircle
  8
0
 62
0
370
0
  6
CONTINUOUS
 10
73.994056999999998
 20
242.5
 30
0.0
 40
1.5
  0
LINE
  5
7E
100
AcDbEntity
100
AcDbLine
  8
0
 62
0
370
0
  6
CONTINUOUS
 10
72.494056999999998
 20
242.5
 30
0.0
 11
75.494056999999998
 21
242.5
 31
0.0
  0
LINE
  5
7F
100
AcDbEntity
100
AcDbLine
  8
0
 62
0
370
0
  6
CONTINUOUS
 10
73.994056999999998
 20
244.0
 30
0.0
 11
73.994056999999998
 21
241.0
 31
0.0
  0
LINE
  5
80
100
AcDbEntity
100
AcDbLine
  8
0
 62
0
370
0
  6
CONTINUOUS
 10
103.994056999999998
 20
274.0
 30
0.0
 11
103.994056999999998
 21
271.0
 31
0.0
  0
LINE
  5
81
100
AcDbEntity
100
AcDbLine
  8
0
 62
0
370
0
  6
CONTINUOUS
 10
102.494056999999998
 20
272.5
 30
0.0
 11
105.494056999999998
 21
272.5
 31
0.0
  0
LINE
  5
82
100
AcDbEntity
100
AcDbLine
  8
0
 62
0
370
0
  6
CONTINUOUS
 10
72.494056999999998
 20
272.5
 30
0.0
 11
75.494056999999998
 21
272.5
 31
0.0
  0
LINE
  5
83
100
AcDbEntity
100
AcDbLine
  8
0
 62
0
370
0
  6
CONTINUOUS
 10
73.994056999999998
 20
274.0
 30
0.0
 11
73.994056999999998
 21
271.0
 31
0.0
  0
LINE
  5
84
100
AcDbEntity
100
AcDbLine
  8
0
 62
0
370
0
  6
CONTINUOUS
 10
103.994056999999998
 20
244.0
 30
0.0
 11
103.994056999999998
 21
241.0
 31
0.0
  0
LINE
  5
85
100
AcDbEntity
100
AcDbLine
  8
0
 62
0
370
0
  6
CONTINUOUS
 10
102.494056999999998
 20
242.5
 30
0.0
 11
105.494056999999998
 21
242.5
 31
0.0
  0
CIRCLE
  5
86
100
AcDbEntity
100
AcDbCircle
  8
0
 62
0
370
0
  6
CONTINUOUS
 10
128.4868119999999863
 20
272.5
 30
0.0
 40
1.5
  0
CIRCLE
  5
87
100
AcDbEntity
100
AcDbCircle
  8
0
 62
0
370
0
  6
CONTINUOUS
 10
128.4868119999999863
 20
242.5
 30
0.0
 40
1.5
  0
CIRCLE
  5
88
100
AcDbEntity
100
AcDbCircle
  8
0
 62
0
370
0
  6
CONTINUOUS
 10
158.4868119999999863
 20
242.5
 30
0.0
 40
1.5
  0
CIRCLE
  5
89
100
AcDbEntity
100
AcDbCircle
  8
0
 62
0
370
0
  6
CONTINUOUS
 10
158.4868119999999863
 20
272.5
 30
0.0
 40
1.5
  0
LINE
  5
8A
100
AcDbEntity
100
AcDbLine
  8
0
 62
0
370
0
  6
CONTINUOUS
 10
128.4868119999999863
 20
274.0
 30
0.0
 11
128.4868119999999863
 21
271.0
 31
0.0
  0
LINE
  5
8B
100
AcDbEntity
100
AcDbLine
  8
0
 62
0
370
0
  6
CONTINUOUS
 10
126.9868120000000005
 20
272.5
 30
0.0
 11
129.9868119999999863
 21
272.5
 31
0.0
  0
LINE
  5
8C
100
AcDbEntity
100
AcDbLine
  8
0
 62
0
370
0
  6
CONTINUOUS
 10
156.9868119999999863
 20
242.5
 30
0.0
 11
159.9868119999999863
 21
242.5
 31
0.0
  0
LINE
  5
8D
100
AcDbEntity
100
AcDbLine
  8
0
 62
0
370
0
  6
CONTINUOUS
 10
158.4868119999999863
 20
241.0
 30
0.0
 11
158.4868119999999863
 21
244.0
 31
0.0
  0
LINE
  5
8E
100
AcDbEntity
100
AcDbLine
  8
0
 62
0
370
0
  6
CONTINUOUS
 10
128.4868119999999863
 20
244.0
 30
0.0
 11
128.4868119999999863
 21
241.0
 31
0.0
  0
LINE
  5
8F
100
AcDbEntity
100
AcDbLine
  8
0
 62
0
370
0
  6
CONTINUOUS
 10
126.9868120000000005
 20
242.5
 30
0.0
 11
129.9868119999999863
 21
242.5
 31
0.0
  0
LINE
  5
90
100
AcDbEntity
100
AcDbLine
  8
0
 62
0
370
0
  6
CONTINUOUS
 10
158.4868119999999863
 20
274.0
 30
0.0
 11
158.4868119999999863
 21
271.0
 31
0.0
  0
LINE
  5
91
100
AcDbEntity
100
AcDbLine
  8
0
 62
0
370
0
  6
CONTINUOUS
 10
156.9868119999999863
 20
272.5
 30
0.0
 11
159.9868119999999863
 21
272.5
 31
0.0
  0
LINE
  5
92
100
AcDbEntity
100
AcDbLine
  8
0
 62
0
370
0
  6
CONTINUOUS
 10
95.3940570000000037
 20
283.5
 30
0.0
 11
95.3940570000000037
 21
231.5
 31
0.0
  0
LINE
  5
93
100
AcDbEntity
100
AcDbLine
  8
0
 62
0
370
0
  6
CONTINUOUS
 10
65.994056999999998
 20
283.5
 30
0.0
 11
65.994056999999998
 21
231.5
 31
0.0
  0
LINE
  5
94
100
AcDbEntity
100
AcDbLine
  8
0
 62
0
370
0
  6
CONTINUOUS
 10
68.994056999999998
 20
283.5
 30
0.0
 11
68.994056999999998
 21
231.5
 31
0.0
  0
LINE
  5
95
100
AcDbEntity
100
AcDbLine
  8
0
 62
0
370
0
  6
CONTINUOUS
 10
120.4868120000000005
 20
283.5
 30
0.0
 11
120.4868120000000005
 21
231.5
 31
0.0
  0
LINE
  5
96
100
AcDbEntity
100
AcDbLine
  8
0
 62
0
370
0
  6
CONTINUOUS
 10
165.4868119999999863
 20
231.5
 30
0.0
 11
165.4868119999999863
 21
283.5
 31
0.0
  0
LINE
  5
97
100
AcDbEntity
100
AcDbLine
  8
0
 62
0
370
0
  6
CONTINUOUS
 10
162.4868119999999863
 20
231.5
 30
0.0
 11
162.4868119999999863
 21
283.5
 31
0.0
  0
POINT
  5
98
100
AcDbEntity
100
AcDbPoint
  8
0
 62
0
370
0
  6
CONTINUOUS
 10
0.5
 20
0.0
 30
0.0
  0
LINE
  5
99
100
AcDbEntity
100
AcDbLine
  8
0
 62
0
370
0
  6
CONTINUOUS
 10
68.994056999999998
 20
267.5
 30
0.0
 11
68.994056999999998
 21
247.5
 31
0.0
  0
LINE
  5
9A
100
AcDbEntity
100
AcDbLine
  8
0
 62
0
370
0
  6
CONTINUOUS
 10
78.994056999999998
 20
278.5
 30
0.0
 11
78.994056999999998
 21
267.5
 31
0.0
  0
LINE
  5
9B
100
AcDbEntity
100
AcDbLine
  8
0
 62
0
370
0
  6
CONTINUOUS
 10
68.994056999999998
 20
267.5
 30
0.0
 11
78.994056999999998
 21
267.5
 31
0.0
  0
LINE
  5
9C
100
AcDbEntity
100
AcDbLine
  8
0
 62
0
370
0
  6
CONTINUOUS
 10
68.994056999999998
 20
247.5
 30
0.0
 11
78.994056999999998
 21
247.5
 31
0.0
  0
LINE
  5
9D
100
AcDbEntity
100
AcDbLine
  8
0
 62
0
370
0
  6
CONTINUOUS
 10
78.994056999999998
 20
247.5
 30
0.0
 11
78.994056999999998
 21
236.5
 31
0.0
  0
LINE
  5
9E
100
AcDbEntity
100
AcDbLine
  8
0
 62
0
370
0
  6
CONTINUOUS
 10
92.3940570000000037
 20
278.5
 30
0.0
 11
92.3940570000000037
 21
236.5
 31
0.0
  0
LINE
  5
9F
100
AcDbEntity
100
AcDbLine
  8
0
 62
0
370
0
  6
CONTINUOUS
 10
107.994056999999998
 20
247.5
 30
0.0
 11
107.994056999999998
 21
267.5
 31
0.0
  0
LINE
  5
A0
100
AcDbEntity
100
AcDbLine
  8
0
 62
0
370
0
  6
CONTINUOUS
 10
98.994056999999998
 20
278.5
 30
0.0
 11
98.994056999999998
 21
267.5
 31
0.0
  0
LINE
  5
A1
100
AcDbEntity
100
AcDbLine
  8
0
 62
0
370
0
  6
CONTINUOUS
 10
98.994056999999998
 20
267.5
 30
0.0
 11
107.994056999999998
 21
267.5
 31
0.0
  0
LINE
  5
A2
100
AcDbEntity
100
AcDbLine
  8
0
 62
0
370
0
  6
CONTINUOUS
 10
98.994056999999998
 20
247.5
 30
0.0
 11
107.994056999999998
 21
247.5
 31
0.0
  0
LINE
  5
A3
100
AcDbEntity
100
AcDbLine
  8
0
 62
0
370
0
  6
CONTINUOUS
 10
98.994056999999998
 20
247.5
 30
0.0
 11
98.994056999999998
 21
236.5
 31
0.0
  0
LINE
  5
A4
100
AcDbEntity
100
AcDbLine
  8
0
 62
0
370
0
  6
CONTINUOUS
 10
95.3940570000000037
 20
278.5
 30
0.0
 11
95.3940570000000037
 21
236.5
 31
0.0
  0
LINE
  5
A5
100
AcDbEntity
100
AcDbLine
  8
0
 62
0
370
0
  6
CONTINUOUS
 10
78.994056999999998
 20
236.5
 30
0.0
 11
92.3940570000000037
 21
236.5
 31
0.0
  0
LINE
  5
A6
100
AcDbEntity
100
AcDbLine
  8
0
 62
0
370
0
  6
CONTINUOUS
 10
78.994056999999998
 20
278.5
 30
0.0
 11
92.3940570000000037
 21
278.5
 31
0.0
  0
LINE
  5
A7
100
AcDbEntity
100
AcDbLine
  8
0
 62
0
370
0
  6
CONTINUOUS
 10
95.3940570000000037
 20
236.5
 30
0.0
 11
98.994056999999998
 21
236.5
 31
0.0
  0
LINE
  5
A8
100
AcDbEntity
100
AcDbLine
  8
0
 62
0
370
0
  6
CONTINUOUS
 10
95.3940570000000037
 20
278.5
 30
0.0
 11
98.994056999999998
 21
278.5
 31
0.0
  0
LINE
  5
A9
100
AcDbEntity
100
AcDbLine
  8
0
 62
0
370
0
  6
CONTINUOUS
 10
92.3940570000000037
 20
283.5
 30
0.0
 11
92.3940570000000037
 21
231.5
 31
0.0
  0
LINE
  5
AA
100
AcDbEntity
100
AcDbLine
  8
0
 62
0
370
0
  6
CONTINUOUS
 10
123.4868120000000005
 20
267.5
 30
0.0
 11
123.4868120000000005
 21
247.5
 31
0.0
  0
LINE
  5
AB
100
AcDbEntity
100
AcDbLine
  8
0
 62
0
370
0
  6
CONTINUOUS
 10
133.4868119999999863
 20
278.5
 30
0.0
 11
133.4868119999999863
 21
267.5
 31
0.0
  0
LINE
  5
AC
100
AcDbEntity
100
AcDbLine
  8
0
 62
0
370
0
  6
CONTINUOUS
 10
123.4868120000000005
 20
267.5
 30
0.0
 11
133.4868119999999863
 21
267.5
 31
0.0
  0
LINE
  5
AD
100
AcDbEntity
100
AcDbLine
  8
0
 62
0
370
0
  6
CONTINUOUS
 10
123.4868120000000005
 20
247.5
 30
0.0
 11
133.4868119999999863
 21
247.5
 31
0.0
  0
LINE
  5
AE
100
AcDbEntity
100
AcDbLine
  8
0
 62
0
370
0
  6
CONTINUOUS
 10
133.4868119999999863
 20
247.5
 30
0.0
 11
133.4868119999999863
 21
236.5
 31
0.0
  0
LINE
  5
AF
100
AcDbEntity
100
AcDbLine
  8
0
 62
0
370
0
  6
CONTINUOUS
 10
133.4868119999999863
 20
278.5
 30
0.0
 11
153.4868119999999863
 21
278.5
 31
0.0
  0
LINE
  5
B0
100
AcDbEntity
100
AcDbLine
  8
0
 62
0
370
0
  6
CONTINUOUS
 10
162.4868119999999863
 20
247.5
 30
0.0
 11
162.4868119999999863
 21
267.5
 31
0.0
  0
LINE
  5
B1
100
AcDbEntity
100
AcDbLine
  8
0
 62
0
370
0
  6
CONTINUOUS
 10
153.4868119999999863
 20
278.5
 30
0.0
 11
153.4868119999999863
 21
267.5
 31
0.0
  0
LINE
  5
B2
100
AcDbEntity
100
AcDbLine
  8
0
 62
0
370
0
  6
CONTINUOUS
 10
153.4868119999999863
 20
267.5
 30
0.0
 11
162.4868119999999863
 21
267.5
 31
0.0
  0
LINE
  5
B3
100
AcDbEntity
100
AcDbLine
  8
0
 62
0
370
0
  6
CONTINUOUS
 10
153.4868119999999863
 20
247.5
 30
0.0
 11
162.4868119999999863
 21
247.5
 31
0.0
  0
LINE
  5
B4
100
AcDbEntity
100
AcDbLine
  8
0
 62
0
370
0
  6
CONTINUOUS
 10
133.4868119999999863
 20
236.5
 30
0.0
 11
153.4868119999999863
 21
236.5
 31
0.0
  0
LINE
  5
B5
100
AcDbEntity
100
AcDbLine
  8
0
 62
0
370
0
  6
CONTINUOUS
 10
153.4868119999999863
 20
247.5
 30
0.0
 11
153.4868119999999863
 21
236.5
 31
0.0
  0
POINT
  5
B6
100
AcDbEntity
100
AcDbPoint
  8
0
 62
0
370
0
  6
CONTINUOUS
 10
1.0
 20
-1.0
 30
0.0
  0
LINE
  5
B7
100
AcDbEntity
100
AcDbLine
  8
0
 62
0
370
0
  6
CONTINUOUS
 10
26.9396470000000008
 20
176.9461860000000115
 30
0.0
 11
13.5046180000000007
 21
163.5111569999999972
 31
0.0
  0
LINE
  5
B8
100
AcDbEntity
100
AcDbLine
  8
0
 62
0
370
0
  6
CONTINUOUS
 10
42.0010210000000015
 20
135.0147540000000106
 30
0.0
 11
13.5046180000000007
 21
163.5111569999999972
 31
0.0
  0
CIRCLE
  5
B9
100
AcDbEntity
100
AcDbCircle
  8
0
 62
0
370
0
  6
CONTINUOUS
 10
14.2824349999999995
 20
170.0872500000000116
 30
0.0
 40
1.5
  0
CIRCLE
  5
BA
100
AcDbEntity
100
AcDbCircle
  8
0
 62
0
370
0
  6
CONTINUOUS
 10
21.0706610000000012
 20
176.8754749999999945
 30
0.0
 40
1.5
  0
CIRCLE
  5
BB
100
AcDbEntity
100
AcDbCircle
  8
0
 62
0
370
0
  6
CONTINUOUS
 10
55.3653389999999987
 20
142.5807969999999898
 30
0.0
 40
1.5
  0
CIRCLE
  5
BC
100
AcDbEntity
100
AcDbCircle
  8
0
 62
0
370
0
  6
CONTINUOUS
 10
48.5771140000000017
 20
135.7925710000000095
 30
0.0
 40
1.5
  0
LINE
  5
BD
100
AcDbEntity
100
AcDbLine
  8
0
 62
0
370
0
  6
CONTINUOUS
 10
8.7393509999999992
 20
182.2494869999999878
 30
0.0
 11
8.7393509999999992
 21
130.2494869999999878
 31
0.0
  0
LINE
  5
BE
100
AcDbEntity
100
AcDbLine
  8
0
 62
0
370
0
  6
CONTINUOUS
 10
55.4360500000000016
 20
148.4497829999999965
 30
0.0
 11
42.0010210000000015
 21
135.0147540000000106
 31
0.0
  0
LINE
  5
BF
100
AcDbEntity
100
AcDbLine
  8
0
 62
0
370
0
  6
CONTINUOUS
 10
8.7393509999999992
 20
182.2494869999999878
 30
0.0
 11
21.6363459999999996
 21
182.2494869999999878
 31
0.0
  0
LINE
  5
C0
100
AcDbEntity
100
AcDbLine
  8
0
 62
0
370
0
  6
CONTINUOUS
 10
60.7393509999999992
 20
143.1464819999999918
 30
0.0
 11
60.7393509999999992
 21
130.2494869999999878
 31
0.0
  0
LINE
  5
C1
100
AcDbEntity
100
AcDbLine
  8
0
 62
0
370
0
  6
CONTINUOUS
 10
55.4360500000000016
 20
148.4497829999999965
 30
0.0
 11
60.7393509999999992
 21
143.1464819999999918
 31
0.0
  0
LINE
  5
C2
100
AcDbEntity
100
AcDbLine
  8
0
 62
0
370
0
  6
CONTINUOUS
 10
26.9396470000000008
 20
176.9461860000000115
 30
0.0
 11
21.6363459999999996
 21
182.2494869999999878
 31
0.0
  0
LINE
  5
C3
100
AcDbEntity
100
AcDbLine
  8
0
 62
0
370
0
  6
CONTINUOUS
 10
62.7334079999999972
 20
182.2494869999999878
 30
0.0
 11
62.7334079999999972
 21
130.2494869999999878
 31
0.0
  0
LINE
  5
C4
100
AcDbEntity
100
AcDbLine
  8
0
 62
0
370
0
  6
CONTINUOUS
 10
114.7334079999999972
 20
182.2494869999999878
 30
0.0
 11
114.7334079999999972
 21
130.2494869999999878
 31
0.0
  0
LINE
  5
C5
100
AcDbEntity
100
AcDbLine
  8
0
 62
0
370
0
  6
CONTINUOUS
 10
62.7334079999999972
 20
130.2494869999999878
 30
0.0
 11
114.7334079999999972
 21
130.2494869999999878
 31
0.0
  0
LINE
  5
C6
100
AcDbEntity
100
AcDbLine
  8
0
 62
0
370
0
  6
CONTINUOUS
 10
117.2261629999999997
 20
182.2494869999999878
 30
0.0
 11
117.2261629999999997
 21
130.2494869999999878
 31
0.0
  0
LINE
  5
C7
100
AcDbEntity
100
AcDbLine
  8
0
 62
0
370
0
  6
CONTINUOUS
 10
117.2261629999999997
 20
182.2494869999999878
 30
0.0
 11
169.2261630000000139
 21
182.2494869999999878
 31
0.0
  0
LINE
  5
C8
100
AcDbEntity
100
AcDbLine
  8
0
 62
0
370
0
  6
CONTINUOUS
 10
169.2261630000000139
 20
182.2494869999999878
 30
0.0
 11
169.2261630000000139
 21
130.2494869999999878
 31
0.0
  0
LINE
  5
C9
100
AcDbEntity
100
AcDbLine
  8
0
 62
0
370
0
  6
CONTINUOUS
 10
60.7393509999999992
 20
85.3193569999999966
 30
0.0
 11
47.8423560000000023
 21
85.3193569999999966
 31
0.0
  0
LINE
  5
CA
100
AcDbEntity
100
AcDbLine
  8
0
 62
0
370
0
  6
CONTINUOUS
 10
60.7393509999999992
 20
85.3193569999999966
 30
0.0
 11
36.3612970000000004
 21
124.0093980000000045
 31
0.0
  0
LINE
  5
CB
100
AcDbEntity
100
AcDbLine
  8
0
 62
0
370
0
  6
CONTINUOUS
 10
8.7393509999999992
 20
85.3193569999999966
 30
0.0
 11
17.2674799999999991
 21
120.8618120000000005
 31
0.0
  0
ARC
  5
CC
100
AcDbEntity
  8
0
 62
0
370
0
  6
CONTINUOUS
100
AcDbCircle
 10
27.4776810000000005
 20
118.4119550000000061
 30
0.0
 40
10.5
100
AcDbArc
 50
32.2144559999999984
 51
166.5074070000000006
  0
CIRCLE
  5
CD
100
AcDbEntity
100
AcDbCircle
  8
0
 62
0
370
0
  6
CONTINUOUS
 10
27.4776810000000005
 20
118.4119550000000061
 30
0.0
 40
1.5
  0
LINE
  5
CE
100
AcDbEntity
100
AcDbLine
  8
0
 62
0
370
0
  6
CONTINUOUS
 10
114.7334079999999972
 20
85.3193569999999966
 30
0.0
 11
90.3553540000000055
 21
124.0093980000000045
 31
0.0
  0
LINE
  5
CF
100
AcDbEntity
100
AcDbLine
  8
0
 62
0
370
0
  6
CONTINUOUS
 10
62.7334079999999972
 20
85.3193569999999966
 30
0.0
 11
71.2615370000000041
 21
120.8618120000000005
 31
0.0
  0
ARC
  5
D0
100
AcDbEntity
  8
0
 62
0
370
0
  6
CONTINUOUS
100
AcDbCircle
 10
81.471738000000002
 20
118.4119550000000061
 30
0.0
 40
10.5
100
AcDbArc
 50
32.2144559999999984
 51
166.5074070000000006
  0
CIRCLE
  5
D1
100
AcDbEntity
100
AcDbCircle
  8
0
 62
0
370
0
  6
CONTINUOUS
 10
81.471738000000002
 20
118.4119550000000061
 30
0.0
 40
1.5
  0
LINE
  5
D2
100
AcDbEntity
100
AcDbLine
  8
0
 62
0
370
0
  6
CONTINUOUS
 10
60.7393509999999992
 20
85.3193569999999966
 30
0.0
 11
8.7393509999999992
 21
85.3193569999999966
 31
0.0
  0
LINE
  5
D3
100
AcDbEntity
100
AcDbLine
  8
0
 62
0
370
0
  6
CONTINUOUS
 10
169.2261630000000139
 20
85.3193569999999966
 30
0.0
 11
156.3291680000000099
 21
85.3193569999999966
 31
0.0
  0
LINE
  5
D4
100
AcDbEntity
100
AcDbLine
  8
0
 62
0
370
0
  6
CONTINUOUS
 10
169.2261630000000139
 20
85.3193569999999966
 30
0.0
 11
117.2261629999999997
 21
85.3193569999999966
 31
0.0
  0
LINE
  5
D5
100
AcDbEntity
100
AcDbLine
  8
0
 62
0
370
0
  6
CONTINUOUS
 10
169.2261630000000139
 20
85.3193569999999966
 30
0.0
 11
144.8481089999999938
 21
124.0093980000000045
 31
0.0
  0
LINE
  5
D6
100
AcDbEntity
100
AcDbLine
  8
0
 62
0
370
0
  6
CONTINUOUS
 10
117.2261629999999997
 20
85.3193569999999966
 30
0.0
 11
125.7542920000000066
 21
120.8618120000000005
 31
0.0
  0
ARC
  5
D7
100
AcDbEntity
  8
0
 62
0
370
0
  6
CONTINUOUS
100
AcDbCircle
 10
135.9644930000000045
 20
118.4119550000000061
 30
0.0
 40
10.5
100
AcDbArc
 50
32.2144559999999984
 51
166.5074070000000006
  0
CIRCLE
  5
D8
100
AcDbEntity
100
AcDbCircle
  8
0
 62
0
370
0
  6
CONTINUOUS
 10
135.9644930000000045
 20
110.9119550000000061
 30
0.0
 40
1.5
  0
CIRCLE
  5
D9
100
AcDbEntity
100
AcDbCircle
  8
0
 62
0
370
0
  6
CONTINUOUS
 10
135.9644930000000045
 20
125.9119550000000061
 30
0.0
 40
1.5
  0
LINE
  5
DA
100
AcDbEntity
100
AcDbLine
  8
0
 62
0
370
0
  6
CONTINUOUS
 10
62.7334079999999972
 20
85.3193569999999966
 30
0.0
 11
114.7334079999999972
 21
85.3193569999999966
 31
0.0
  0
LINE
  5
DB
100
AcDbEntity
100
AcDbLine
  8
0
 62
0
370
0
  6
CONTINUOUS
 10
62.7334079999999972
 20
182.2494869999999878
 30
0.0
 11
114.7334079999999972
 21
182.2494869999999878
 31
0.0
  0
LINE
  5
DC
100
AcDbEntity
100
AcDbLine
  8
0
 62
0
370
0
  6
CONTINUOUS
 10
8.7393509999999992
 20
130.2494869999999878
 30
0.0
 11
60.7393509999999992
 21
130.2494869999999878
 31
0.0
  0
LINE
  5
DD
100
AcDbEntity
100
AcDbLine
  8
0
 62
0
370
0
  6
CONTINUOUS
 10
117.2261629999999997
 20
130.2494869999999878
 30
0.0
 11
169.2261630000000139
 21
130.2494869999999878
 31
0.0
  0
LINE
  5
DE
100
AcDbEntity
100
AcDbLine
  8
0
 62
0
370
0
  6
CONTINUOUS
 10
82.8717379999999935
 20
118.4119550000000061
 30
0.0
 11
80.0717379999999963
 21
118.4119550000000061
 31
0.0
  0
LINE
  5
DF
100
AcDbEntity
100
AcDbLine
  8
0
 62
0
370
0
  6
CONTINUOUS
 10
81.471738000000002
 20
117.0119550000000004
 30
0.0
 11
81.471738000000002
 21
119.8119549999999975
 31
0.0
  0
LINE
  5
E0
100
AcDbEntity
100
AcDbLine
  8
0
 62
0
370
0
  6
CONTINUOUS
 10
137.3644930000000102
 20
118.4119550000000061
 30
0.0
 11
134.5644929999999988
 21
118.4119550000000061
 31
0.0
  0
LINE
  5
E1
100
AcDbEntity
100
AcDbLine
  8
0
 62
0
370
0
  6
CONTINUOUS
 10
135.9644930000000045
 20
117.0119550000000004
 30
0.0
 11
135.9644930000000045
 21
119.8119549999999975
 31
0.0
  0
LINE
  5
E2
100
AcDbEntity
100
AcDbLine
  8
0
 62
0
370
0
  6
CONTINUOUS
 10
137.4644930000000045
 20
110.9119550000000061
 30
0.0
 11
134.4644930000000045
 21
110.9119550000000061
 31
0.0
  0
LINE
  5
E3
100
AcDbEntity
100
AcDbLine
  8
0
 62
0
370
0
  6
CONTINUOUS
 10
135.9644930000000045
 20
109.4119550000000061
 30
0.0
 11
135.9644930000000045
 21
112.4119550000000061
 31
0.0
  0
LINE
  5
E4
100
AcDbEntity
100
AcDbLine
  8
0
 62
0
370
0
  6
CONTINUOUS
 10
135.9644930000000045
 20
124.4119550000000061
 30
0.0
 11
135.9644930000000045
 21
127.4119550000000061
 31
0.0
  0
LINE
  5
E5
100
AcDbEntity
100
AcDbLine
  8
0
 62
0
370
0
  6
CONTINUOUS
 10
137.4644930000000045
 20
125.9119550000000061
 30
0.0
 11
134.4644930000000045
 21
125.9119550000000061
 31
0.0
  0
LINE
  5
E6
100
AcDbEntity
100
AcDbLine
  8
0
 62
0
370
0
  6
CONTINUOUS
 10
28.877680999999999
 20
118.4119550000000061
 30
0.0
 11
26.0776809999999983
 21
118.4119550000000061
 31
0.0
  0
LINE
  5
E7
100
AcDbEntity
100
AcDbLine
  8
0
 62
0
370
0
  6
CONTINUOUS
 10
27.4776810000000005
 20
117.0119550000000004
 30
0.0
 11
27.4776810000000005
 21
119.8119549999999975
 31
0.0
  0
LINE
  5
E8
100
AcDbEntity
100
AcDbLine
  8
0
 62
0
370
0
  6
CONTINUOUS
 10
14.2824349999999995
 20
171.5872500000000116
 30
0.0
 11
14.2824349999999995
 21
168.5872500000000116
 31
0.0
  0
LINE
  5
E9
100
AcDbEntity
100
AcDbLine
  8
0
 62
0
370
0
  6
CONTINUOUS
 10
12.7824349999999995
 20
170.0872500000000116
 30
0.0
 11
15.7824349999999995
 21
170.0872500000000116
 31
0.0
  0
LINE
  5
EA
100
AcDbEntity
100
AcDbLine
  8
0
 62
0
370
0
  6
CONTINUOUS
 10
48.5771140000000017
 20
137.2925710000000095
 30
0.0
 11
48.5771140000000017
 21
134.2925710000000095
 31
0.0
  0
LINE
  5
EB
100
AcDbEntity
100
AcDbLine
  8
0
 62
0
370
0
  6
CONTINUOUS
 10
47.0771140000000017
 20
135.7925710000000095
 30
0.0
 11
50.0771140000000017
 21
135.7925710000000095
 31
0.0
  0
CIRCLE
  5
EC
100
AcDbEntity
100
AcDbCircle
  8
0
 62
0
370
0
  6
CONTINUOUS
 10
135.9644930000000045
 20
118.4119550000000061
 30
0.0
 40
4.0
  0
CIRCLE
  5
ED
100
AcDbEntity
100
AcDbCircle
  8
0
 62
0
370
0
  6
CONTINUOUS
 10
73.7334079999999972
 20
171.2494869999999878
 30
0.0
 40
1.5
  0
CIRCLE
  5
EE
100
AcDbEntity
100
AcDbCircle
  8
0
 62
0
370
0
  6
CONTINUOUS
 10
103.7334079999999972
 20
171.2494869999999878
 30
0.0
 40
1.5
  0
CIRCLE
  5
EF
100
AcDbEntity
100
AcDbCircle
  8
0
 62
0
370
0
  6
CONTINUOUS
 10
103.7334079999999972
 20
141.2494869999999878
 30
0.0
 40
1.5
  0
CIRCLE
  5
F0
100
AcDbEntity
100
AcDbCircle
  8
0
 62
0
370
0
  6
CONTINUOUS
 10
73.7334079999999972
 20
141.2494869999999878
 30
0.0
 40
1.5
  0
LINE
  5
F1
100
AcDbEntity
100
AcDbLine
  8
0
 62
0
370
0
  6
CONTINUOUS
 10
72.2334079999999972
 20
141.2494869999999878
 30
0.0
 11
75.2334079999999972
 21
141.2494869999999878
 31
0.0
  0
LINE
  5
F2
100
AcDbEntity
100
AcDbLine
  8
0
 62
0
370
0
  6
CONTINUOUS
 10
73.7334079999999972
 20
142.7494869999999878
 30
0.0
 11
73.7334079999999972
 21
139.7494869999999878
 31
0.0
  0
LINE
  5
F3
100
AcDbEntity
100
AcDbLine
  8
0
 62
0
370
0
  6
CONTINUOUS
 10
103.7334079999999972
 20
172.7494869999999878
 30
0.0
 11
103.7334079999999972
 21
169.7494869999999878
 31
0.0
  0
LINE
  5
F4
100
AcDbEntity
100
AcDbLine
  8
0
 62
0
370
0
  6
CONTINUOUS
 10
102.2334079999999972
 20
171.2494869999999878
 30
0.0
 11
105.2334079999999972
 21
171.2494869999999878
 31
0.0
  0
LINE
  5
F5
100
AcDbEntity
100
AcDbLine
  8
0
 62
0
370
0
  6
CONTINUOUS
 10
72.2334079999999972
 20
171.2494869999999878
 30
0.0
 11
75.2334079999999972
 21
171.2494869999999878
 31
0.0
  0
LINE
  5
F6
100
AcDbEntity
100
AcDbLine
  8
0
 62
0
370
0
  6
CONTINUOUS
 10
73.7334079999999972
 20
172.7494869999999878
 30
0.0
 11
73.7334079999999972
 21
169.7494869999999878
 31
0.0
  0
LINE
  5
F7
100
AcDbEntity
100
AcDbLine
  8
0
 62
0
370
0
  6
CONTINUOUS
 10
103.7334079999999972
 20
142.7494869999999878
 30
0.0
 11
103.7334079999999972
 21
139.7494869999999878
 31
0.0
  0
LINE
  5
F8
100
AcDbEntity
100
AcDbLine
  8
0
 62
0
370
0
  6
CONTINUOUS
 10
102.2334079999999972
 20
141.2494869999999878
 30
0.0
 11
105.2334079999999972
 21
141.2494869999999878
 31
0.0
  0
CIRCLE
  5
F9
100
AcDbEntity
100
AcDbCircle
  8
0
 62
0
370
0
  6
CONTINUOUS
 10
128.2261630000000139
 20
171.2494869999999878
 30
0.0
 40
1.5
  0
CIRCLE
  5
FA
100
AcDbEntity
100
AcDbCircle
  8
0
 62
0
370
0
  6
CONTINUOUS
 10
128.2261630000000139
 20
141.2494869999999878
 30
0.0
 40
1.5
  0
CIRCLE
  5
FB
100
AcDbEntity
100
AcDbCircle
  8
0
 62
0
370
0
  6
CONTINUOUS
 10
158.2261630000000139
 20
141.2494869999999878
 30
0.0
 40
1.5
  0
CIRCLE
  5
FC
100
AcDbEntity
100
AcDbCircle
  8
0
 62
0
370
0
  6
CONTINUOUS
 10
158.2261630000000139
 20
171.2494869999999878
 30
0.0
 40
1.5
  0
LINE
  5
FD
100
AcDbEntity
100
AcDbLine
  8
0
 62
0
370
0
  6
CONTINUOUS
 10
128.2261630000000139
 20
172.7494869999999878
 30
0.0
 11
128.2261630000000139
 21
169.7494869999999878
 31
0.0
  0
LINE
  5
FE
100
AcDbEntity
100
AcDbLine
  8
0
 62
0
370
0
  6
CONTINUOUS
 10
126.7261629999999997
 20
171.2494869999999878
 30
0.0
 11
129.7261630000000139
 21
171.2494869999999878
 31
0.0
  0
LINE
  5
FF
100
AcDbEntity
100
AcDbLine
  8
0
 62
0
370
0
  6
CONTINUOUS
 10
156.7261630000000139
 20
141.2494869999999878
 30
0.0
 11
159.7261630000000139
 21
141.2494869999999878
 31
0.0
  0
LINE
  5
100
100
AcDbEntity
100
AcDbLine
  8
0
 62
0
370
0
  6
CONTINUOUS
 10
158.2261630000000139
 20
139.7494869999999878
 30
0.0
 11
158.2261630000000139
 21
142.7494869999999878
 31
0.0
  0
LINE
  5
101
100
AcDbEntity
100
AcDbLine
  8
0
 62
0
370
0
  6
CONTINUOUS
 10
128.2261630000000139
 20
142.7494869999999878
 30
0.0
 11
128.2261630000000139
 21
139.7494869999999878
 31
0.0
  0
LINE
  5
102
100
AcDbEntity
100
AcDbLine
  8
0
 62
0
370
0
  6
CONTINUOUS
 10
126.7261629999999997
 20
141.2494869999999878
 30
0.0
 11
129.7261630000000139
 21
141.2494869999999878
 31
0.0
  0
LINE
  5
103
100
AcDbEntity
100
AcDbLine
  8
0
 62
0
370
0
  6
CONTINUOUS
 10
158.2261630000000139
 20
172.7494869999999878
 30
0.0
 11
158.2261630000000139
 21
169.7494869999999878
 31
0.0
  0
LINE
  5
104
100
AcDbEntity
100
AcDbLine
  8
0
 62
0
370
0
  6
CONTINUOUS
 10
156.7261630000000139
 20
171.2494869999999878
 30
0.0
 11
159.7261630000000139
 21
171.2494869999999878
 31
0.0
  0
LINE
  5
105
100
AcDbEntity
100
AcDbLine
  8
0
 62
0
370
0
  6
CONTINUOUS
 10
95.1334080000000029
 20
182.2494869999999878
 30
0.0
 11
95.1334080000000029
 21
130.2494869999999878
 31
0.0
  0
LINE
  5
106
100
AcDbEntity
100
AcDbLine
  8
0
 62
0
370
0
  6
CONTINUOUS
 10
65.7334079999999972
 20
182.2494869999999878
 30
0.0
 11
65.7334079999999972
 21
130.2494869999999878
 31
0.0
  0
LINE
  5
107
100
AcDbEntity
100
AcDbLine
  8
0
 62
0
370
0
  6
CONTINUOUS
 10
68.7334079999999972
 20
182.2494869999999878
 30
0.0
 11
68.7334079999999972
 21
130.2494869999999878
 31
0.0
  0
LINE
  5
108
100
AcDbEntity
100
AcDbLine
  8
0
 62
0
370
0
  6
CONTINUOUS
 10
120.2261629999999997
 20
182.2494869999999878
 30
0.0
 11
120.2261629999999997
 21
130.2494869999999878
 31
0.0
  0
LINE
  5
109
100
AcDbEntity
100
AcDbLine
  8
0
 62
0
370
0
  6
CONTINUOUS
 10
165.2261630000000139
 20
130.2494869999999878
 30
0.0
 11
165.2261630000000139
 21
182.2494869999999878
 31
0.0
  0
LINE
  5
10A
100
AcDbEntity
100
AcDbLine
  8
0
 62
0
370
0
  6
CONTINUOUS
 10
162.2261630000000139
 20
130.2494869999999878
 30
0.0
 11
162.2261630000000139
 21
182.2494869999999878
 31
0.0
  0
LINE
  5
10B
100
AcDbEntity
100
AcDbLine
  8
0
 62
0
370
0
  6
CONTINUOUS
 10
68.7334079999999972
 20
166.2494869999999878
 30
0.0
 11
68.7334079999999972
 21
146.2494869999999878
 31
0.0
  0
LINE
  5
10C
100
AcDbEntity
100
AcDbLine
  8
0
 62
0
370
0
  6
CONTINUOUS
 10
78.7334079999999972
 20
177.2494869999999878
 30
0.0
 11
78.7334079999999972
 21
166.2494869999999878
 31
0.0
  0
LINE
  5
10D
100
AcDbEntity
100
AcDbLine
  8
0
 62
0
370
0
  6
CONTINUOUS
 10
68.7334079999999972
 20
166.2494869999999878
 30
0.0
 11
78.7334079999999972
 21
166.2494869999999878
 31
0.0
  0
LINE
  5
10E
100
AcDbEntity
100
AcDbLine
  8
0
 62
0
370
0
  6
CONTINUOUS
 10
68.7334079999999972
 20
146.2494869999999878
 30
0.0
 11
78.7334079999999972
 21
146.2494869999999878
 31
0.0
  0
LINE
  5
10F
100
AcDbEntity
100
AcDbLine
  8
0
 62
0
370
0
  6
CONTINUOUS
 10
78.7334079999999972
 20
146.2494869999999878
 30
0.0
 11
78.7334079999999972
 21
135.2494869999999878
 31
0.0
  0
LINE
  5
110
100
AcDbEntity
100
AcDbLine
  8
0
 62
0
370
0
  6
CONTINUOUS
 10
92.1334080000000029
 20
177.2494869999999878
 30
0.0
 11
92.1334080000000029
 21
135.2494869999999878
 31
0.0
  0
LINE
  5
111
100
AcDbEntity
100
AcDbLine
  8
0
 62
0
370
0
  6
CONTINUOUS
 10
107.7334079999999972
 20
146.2494869999999878
 30
0.0
 11
107.7334079999999972
 21
166.2494869999999878
 31
0.0
  0
LINE
  5
112
100
AcDbEntity
100
AcDbLine
  8
0
 62
0
370
0
  6
CONTINUOUS
 10
98.7334079999999972
 20
177.2494869999999878
 30
0.0
 11
98.7334079999999972
 21
166.2494869999999878
 31
0.0
  0
LINE
  5
113
100
AcDbEntity
100
AcDbLine
  8
0
 62
0
370
0
  6
CONTINUOUS
 10
98.7334079999999972
 20
166.2494869999999878
 30
0.0
 11
107.7334079999999972
 21
166.2494869999999878
 31
0.0
  0
LINE
  5
114
100
AcDbEntity
100
AcDbLine
  8
0
 62
0
370
0
  6
CONTINUOUS
 10
98.7334079999999972
 20
146.2494869999999878
 30
0.0
 11
107.7334079999999972
 21
146.2494869999999878
 31
0.0
  0
LINE
  5
115
100
AcDbEntity
100
AcDbLine
  8
0
 62
0
370
0
  6
CONTINUOUS
 10
98.7334079999999972
 20
146.2494869999999878
 30
0.0
 11
98.7334079999999972
 21
135.2494869999999878
 31
0.0
  0
LINE
  5
116
100
AcDbEntity
100
AcDbLine
  8
0
 62
0
370
0
  6
CONTINUOUS
 10
95.1334080000000029
 20
177.2494869999999878
 30
0.0
 11
95.1334080000000029
 21
135.2494869999999878
 31
0.0
  0
LINE
  5
117
100
AcDbEntity
100
AcDbLine
  8
0
 62
0
370
0
  6
CONTINUOUS
 10
78.7334079999999972
 20
135.2494869999999878
 30
0.0
 11
92.1334080000000029
 21
135.2494869999999878
 31
0.0
  0
LINE
  5
118
100
AcDbEntity
100
AcDbLine
  8
0
 62
0
370
0
  6
CONTINUOUS
 10
78.7334079999999972
 20
177.2494869999999878
 30
0.0
 11
92.1334080000000029
 21
177.2494869999999878
 31
0.0
  0
LINE
  5
119
100
AcDbEntity
100
AcDbLine
  8
0
 62
0
370
0
  6
CONTINUOUS
 10
95.1334080000000029
 20
135.2494869999999878
 30
0.0
 11
98.7334079999999972
 21
135.2494869999999878
 31
0.0
  0
LINE
  5
11A
100
AcDbEntity
100
AcDbLine
  8
0
 62
0
370
0
  6
CONTINUOUS
 10
95.1334080000000029
 20
177.2494869999999878
 30
0.0
 11
98.7334079999999972
 21
177.2494869999999878
 31
0.0
  0
LINE
  5
11B
100
AcDbEntity
100
AcDbLine
  8
0
 62
0
370
0
  6
CONTINUOUS
 10
92.1334080000000029
 20
182.2494869999999878
 30
0.0
 11
92.1334080000000029
 21
130.2494869999999878
 31
0.0
  0
LINE
  5
11C
100
AcDbEntity
100
AcDbLine
  8
0
 62
0
370
0
  6
CONTINUOUS
 10
123.2261629999999997
 20
166.2494869999999878
 30
0.0
 11
123.2261629999999997
 21
146.2494869999999878
 31
0.0
  0
LINE
  5
11D
100
AcDbEntity
100
AcDbLine
  8
0
 62
0
370
0
  6
CONTINUOUS
 10
133.2261630000000139
 20
177.2494869999999878
 30
0.0
 11
133.2261630000000139
 21
166.2494869999999878
 31
0.0
  0
LINE
  5
11E
100
AcDbEntity
100
AcDbLine
  8
0
 62
0
370
0
  6
CONTINUOUS
 10
123.2261629999999997
 20
166.2494869999999878
 30
0.0
 11
133.2261630000000139
 21
166.2494869999999878
 31
0.0
  0
LINE
  5
11F
100
AcDbEntity
100
AcDbLine
  8
0
 62
0
370
0
  6
CONTINUOUS
 10
123.2261629999999997
 20
146.2494869999999878
 30
0.0
 11
133.2261630000000139
 21
146.2494869999999878
 31
0.0
  0
LINE
  5
120
100
AcDbEntity
100
AcDbLine
  8
0
 62
0
370
0
  6
CONTINUOUS
 10
133.2261630000000139
 20
146.2494869999999878
 30
0.0
 11
133.2261630000000139
 21
135.2494869999999878
 31
0.0
  0
LINE
  5
121
100
AcDbEntity
100
AcDbLine
  8
0
 62
0
370
0
  6
CONTINUOUS
 10
133.2261630000000139
 20
177.2494869999999878
 30
0.0
 11
153.2261630000000139
 21
177.2494869999999878
 31
0.0
  0
LINE
  5
122
100
AcDbEntity
100
AcDbLine
  8
0
 62
0
370
0
  6
CONTINUOUS
 10
162.2261630000000139
 20
146.2494869999999878
 30
0.0
 11
162.2261630000000139
 21
166.2494869999999878
 31
0.0
  0
LINE
  5
123
100
AcDbEntity
100
AcDbLine
  8
0
 62
0
370
0
  6
CONTINUOUS
 10
153.2261630000000139
 20
177.2494869999999878
 30
0.0
 11
153.2261630000000139
 21
166.2494869999999878
 31
0.0
  0
LINE
  5
124
100
AcDbEntity
100
AcDbLine
  8
0
 62
0
370
0
  6
CONTINUOUS
 10
153.2261630000000139
 20
166.2494869999999878
 30
0.0
 11
162.2261630000000139
 21
166.2494869999999878
 31
0.0
  0
LINE
  5
125
100
AcDbEntity
100
AcDbLine
  8
0
 62
0
370
0
  6
CONTINUOUS
 10
153.2261630000000139
 20
146.2494869999999878
 30
0.0
 11
162.2261630000000139
 21
146.2494869999999878
 31
0.0
  0
LINE
  5
126
100
AcDbEntity
100
AcDbLine
  8
0
 62
0
370
0
  6
CONTINUOUS
 10
133.2261630000000139
 20
135.2494869999999878
 30
0.0
 11
153.2261630000000139
 21
135.2494869999999878
 31
0.0
  0
LINE
  5
127
100
AcDbEntity
100
AcDbLine
  8
0
 62
0
370
0
  6
CONTINUOUS
 10
153.2261630000000139
 20
146.2494869999999878
 30
0.0
 11
153.2261630000000139
 21
135.2494869999999878
 31
0.0
  0
ENDSEC
  0
SECTION
  2
OBJECTS
  0
DICTIONARY
  5
C
100
AcDbDictionary
280
0
281
1
  3
ACAD_GROUP
350
D
  3
ACAD_LAYOUT
350
1A
  3
ACAD_MLINESTYLE
350
17
  3
ACAD_PLOTSETTINGS
350
19
  3
ACAD_PLOTSTYLENAME
350
E
  3
AcDbVariableDictionary
350
128
  0
DICTIONARY
  5
D
100
AcDbDictionary
280
0
281
1
  0
ACDBDICTIONARYWDFLT
  5
E
100
AcDbDictionary
281
1
  3
Normal
350
F
100
AcDbDictionaryWithDefault
340
F
  0
ACDBPLACEHOLDER
  5
F
  0
DICTIONARY
  5
17
100
AcDbDictionary
280
0
281
1
  3
Standard
350
18
  0
MLINESTYLE
  5
18
100
AcDbMlineStyle
  2
STANDARD
 70
0
  3

 62
256
 51
90.0
 52
90.0
 71
2
 49
0.5
 62
256
  6
BYLAYER
 49
-0.5
 62
256
  6
BYLAYER
  0
DICTIONARY
  5
19
100
AcDbDictionary
280
0
281
1
  0
DICTIONARY
  5
1A
100
AcDbDictionary
281
1
  3
Layout1
350
1E
  3
Layout2
350
26
  3
Model
350
22
  0
LAYOUT
  5
1E
100
AcDbPlotSettings
  1

  2
C:\Program Files\AutoCAD 2002\plotters\DWF ePlot (optimized for plotting).pc3
  4

  6

 40
0.0
 41
0.0
 42
0.0
 43
0.0
 44
0.0
 45
0.0
 46
0.0
 47
0.0
 48
0.0
 49
0.0
140
0.0
141
0.0
142
1.0
143
1.0
 70
688
 72
0
 73
0
 74
5
  7

 75
16
147
1.0
148
0.0
149
0.0
100
AcDbLayout
  1
Layout1
 70
1
 71
1
 10
0.0
 20
0.0
 11
420.0
 21
297.0
 12
0.0
 22
0.0
 32
0.0
 14
100000000000000000000.0
 24
100000000000000000000.0
 34
100000000000000000000.0
 15
-100000000000000000000.0
 25
-100000000000000000000.0
 35
-100000000000000000000.0
146
0.0
 13
0.0
 23
0.0
 33
0.0
 16
1.0
 26
0.0
 36
0.0
 17
0.0
 27
1.0
 37
0.0
 76
0
330
1B
  0
LAYOUT
  5
22
100
AcDbPlotSettings
  1

  2
C:\Program Files\AutoCAD 2002\plotters\DWF ePlot (optimized for plotting).pc3
  4

  6

 40
0.0
 41
0.0
 42
0.0
 43
0.0
 44
0.0
 45
0.0
 46
0.0
 47
0.0
 48
0.0
 49
0.0
140
0.0
141
0.0
142
1.0
143
1.0
 70
1712
 72
0
 73
0
 74
0
  7

 75
0
147
1.0
148
0.0
149
0.0
100
AcDbLayout
  1
Model
 70
1
 71
0
 10
0.0
 20
0.0
 11
12.0
 21
9.0
 12
0.0
 22
0.0
 32
0.0
 14
0.0
 24
0.0
 34
0.0
 15
0.0
 25
0.0
 35
0.0
146
0.0
 13
0.0
 23
0.0
 33
0.0
 16
1.0
 26
0.0
 36
0.0
 17
0.0
 27
1.0
 37
0.0
 76
0
330
1F
  0
LAYOUT
  5
26
100
AcDbPlotSettings
  1

  2
C:\Program Files\AutoCAD 2002\plotters\DWF ePlot (optimized for plotting).pc3
  4

  6

 40
0.0
 41
0.0
 42
0.0
 43
0.0
 44
0.0
 45
0.0
 46
0.0
 47
0.0
 48
0.0
 49
0.0
140
0.0
141
0.0
142
1.0
143
1.0
 70
688
 72
0
 73
0
 74
5
  7

 75
16
147
1.0
148
0.0
149
0.0
100
AcDbLayout
  1
Layout2
 70
1
 71
2
 10
0.0
 20
0.0
 11
12.0
 21
9.0
 12
0.0
 22
0.0
 32
0.0
 14
0.0
 24
0.0
 34
0.0
 15
0.0
 25
0.0
 35
0.0
146
0.0
 13
0.0
 23
0.0
 33
0.0
 16
1.0
 26
0.0
 36
0.0
 17
0.0
 27
1.0
 37
0.0
 76
0
330
23
  0
DICTIONARY
  5
128
100
AcDbDictionary
281
1
  3
DIMASSOC
350
12A
  3
HIDETEXT
350
129
  0
DICTIONARYVAR
  5
129
100
DictionaryVariables
280
0
  1
2
  0
DICTIONARYVAR
  5
12A
100
DictionaryVariables
280
0
  1
1
  0
ENDSEC
  0
EOF
